M y s t i c A Forum

Объявление

Наш Чат

Информация о пользователе

Привет, Гость! Войдите или зарегистрируйтесь.


Вы здесь » M y s t i c A Forum » Гитарист Forum » Metallica Tabs (Самые Качественные)


Metallica Tabs (Самые Качественные)

Сообщений 1 страница 3 из 3

1

Apocalypse Dawn - Demo Песня 2002 года...

Начало на акустике
Hetfield
E----------------------------|--------------------------|
B----------------------------|--------------------------|
A----------0-----------------|-------0-------------2----|  x5
D-------------4-------------4|----------4-------0-------|
A------7---------------72----|--3s5---------------------|
E--0-------------------------|-------------3s2----------|

на шестой раз проигрыша этого эпизод выход
E----------------------------|--------------------------|
B----------------------------|--------------------------|
A----------0-----------------|-------0------------------|
D-------------4-------------4|----------4----------0----|
A------7---------------72----|--3s5-------------4-------|
E--0-------------------------|-------------3s5----------|

Hetfield класический стиль перебора  Electric guitar
E--------------------------|----------------------------|
B---7h8---------7------5---|--4-------------------------|
A--------9-----------------|--------0-----------0-------|
D-----------9------7------5|-----4-----4-----5----------|
A--------------------------|--2-----------3--------2----|
E---0----------------------|----------------------------|

E--------------------------|--0--------07p0---------|--------(12)---
B---------------7------5-4|--------0--------0-----0-|------0----(12)
A-----0--------------------|-----0--------------0----|----0----------
D--4-----4---------7---5-4|-------------------------|---------------
A-----------2---6----------|-------------------------|---------------
E--------------------------|--0----------------------|-0-------------

E--------------------------|---------------------------|
B--1-----------1-----3-----|--5-----------7------------|
A--------2--------2-----0--|--------0-----------0------|
D-----2-----2--------------|-----5-----5-----7-----7---|
A--0-----------0-----2-----|--3-----------5------------|
E--------------------------|---------------------------|

Hetfield перебор
E------------------------------|-------------------------|
B------------------------------|-------------------------|
A------------------------------|-------------------------|
D------5-s-4-------------------|-------------------------|
A------3---2---------5s7-----7-|-----6-----5--------5--7-|
E--0----------0---0-------0-5-|--0--4--0--3----5s7------|
  Pm         pm----      pm      pm    pm

E------------------------------|-------------------------------|
B------------------------------|-------------------------------|
A------------------------------|-------------------------------|  x4
D------5-s-4-------------------|-------------------------------|
A------3---2---------5s7-----7-|-----6-----5-----8--7-----5--7-|
E--0----------0--0--------0--5-|--0--4--0--3-----6--5--0--3--5-|
  Pm         pm pm       pm      pm    pm       pm-------------

Hetfield быстрый тяжелый рифф
E--------------------------------------|----------------------------|
B--------------------------------------|----------------------------|
A--------------------------------------|----------------------------|
D-------------5-s-4--------------------|----------------------------|
A-------------3---2---------3--------2-|-------8--8s7--------------5|
E--0---0--0-----------0--0--1--0--0--0-|-0--0--6--6-5--0--0--0-0-3|
  Pm-------          pm---    pm---     pm---         pm---------

E----------------------------------|--------------------------------|
B----------------------------------|--------------------------------|
A----------------------------------|--------------------------------|
D------------5--4------------------|--------------------------------|
A------------3--2-------3--------2-|----------2--------------5-----5|
E--0---0--0-------0--0--1--0--0--0-|-0--0--0--0--0--0--0--0--30-0-3|
  Pm-------      pm---    pm---     pm------    pm---------   pm

Hammett  первое соло
E--------------------------------|---------------------------|
B---------------7--8------bd-----|--------------------12--12-|
A------------9--------(11)-(9)p7-|--9~~~~~~~~~~-------12--14-|
D---------9----------------------|--------------12s14--------|
A7s9h10-------------------------|---------------------------|
E--------------------------------|---------------------------|

E-------------------------------|7------------------10-12(14)(12)p10|
B----12-----------12------------|7h8p7---------10-12-------bd-------|
A14(16)14p12----12------------|------9-7-9s11---------------------|
D---bu---------14-----14~~~~~~~~|-----------------------------------|
A-------------------------------|-----------------------------------|
E-------------------------------|-----------------------------------|

E12~~~~~~~~~~~~~~~~~----------|
B-----------------------------|
A-----------------------------|
D-----------------------------|
A-----------------------------|
E-----------------------------|

Hammett  соло 2 с эффектом wah
E----------------------|-----12-----12-----12-----12-----12------12--
B----15-----15---12----|15(17)-15(17)-15(17)-15(17)-15(17)-15(17)----
A14(16)14(16)--12----|---------------------------------------------
D---bu--------------14-|---------------------------------------------
A----------------------|---------------------------------------------
E----------------------|---------------------------------------------

E------12-----12-|-17p15p14-17p15p14-17p15p14-17p15p14-15p14p12------
B-15(17)-15(17)--|---------------------------------------------------
A----------------|---------------------------------------------------
D----------------|---------------------------------------------------
A----------------|---------------------------------------------------
E----------------|---------------------------------------------------

E-14p12---12---------------|-----------------------------------------
B------15---15p12-15p12----|-12h15p12-12h15p1212h15p12-12h15p12---
A-----------------------14-|---------14--------14-------14--------14-
D--------------------------|-----------------------------------------
A--------------------------|-----------------------------------------
E--------------------------|-----------------------------------------

E-----------------------------|
B15(17)~~~~~~~~~~~~~~~~~~~~~--|
A--bu-------------------------|
D-----------------------------|
A-----------------------------|
E-----------------------------|

Hammett  соло 3
E-----------------|---------------------------------|
B-----------------|---------------------------------|
A---------7---7-9s|11~~~~~~~~~~--------11h12h11-----|
D-----7-9---9-----|-----------------------------12--|
A-7h9-------------|---------------------------------|
E-----------------|---------------------------------|

E-------------------------|-14-15p14----------------14-15-17-|
B----------------------12-|----------15----17-17-17----------|
A-------------12-14s16----|-------------14-------------------|
D--14------14-------------|----------------------------------|
A------/14----------------|----------------------------------|
E-------------------------|----------------------------------|

E17(19)~~~~~~~~~~~~~~~~~---|
B--------------------------|
A--------------------------|
D--------------------------|
A--------------------------|
E--------------------------|

Hammett - соло 4
E-------------------|---------------|---------------|---------------|
B-------7-87h8p7---|---13-12--10---|---------8-7---|---------------|
A--9--9-----------9-|-8-----------12|-11----------8-|-9~~~~~~~~~~~~~|
D-------------------|---------------|----10-9-------|---------------|
A-------------------|---------------|---------------|---------------|
E-------------------|---------------|---------------|---------------|

E-----------------7s10-|-8---8---10--|-1214(15)--(14)-|-12~~~~~~~~~|
B--------7-8--10-------|-------------|------bu---bd----|------------|
A--9---9---------------|-------------|-----------------|------------|
D----------------------|-------------|-----------------|------------|
A----------------------|-------------|-----------------|------------|
E----------------------|-------------|-----------------|------------|

Hammett  соло 5
E-19p17p0-17p15p0-15p13p0-17p15p0-15p13p0-13p12p0-|-15p13p0-13p12p0--
B-------------------------------------------------|------------------
A-------------------------------------------------|------------------
D-------------------------------------------------|------------------
A-------------------------------------------------|------------------
E-------------------------------------------------|------------------

E-12p10p0-13p12p0-12p10p0-10p8p0-|-12p10p0-10p8p0-8p7p0-10p0-8p0-7p0-
B--------------------------------|-----------------------------------
A--------------------------------|-----------------------------------
D--------------------------------|-----------------------------------
A--------------------------------|-----------------------------------
E--------------------------------|-----------------------------------

E5p0------------------------------------------------------|
B-------0~~~~~~~~~~~~~~~~~~(keep scooping with whammy bar)-|
A----------------------------------------------------------|
D----------------------------------------------------------|
A----------------------------------------------------------|
E----------------------------------------------------------|

Hammett  соло 6
E-19p15------15-19p15-19p15-19p15-19p15-|-17p14------14-17p14------
B------17--17--------------17----17-------|------15-15--------------
A--------16-------------------------------|--------14----------------
D-----------------------------------------|--------------------------
A-----------------------------------------|--------------------------
E-----------------------------------------|--------------------------

E-17p14---17p14---17p14-|-15p12------12-15p12-15p12--15p12--15p12--|
B------15------15-------|------13--13--------------13------13-------|
A-----------------------|--------12---------------------------------|
D-----------------------|-------------------------------------------|
A-----------------------|-------------------------------------------|
E-----------------------|-------------------------------------------|

E19-19-19-17-17-17-15-15-15-14-14-14-17-17-17-15-15-15-14-14-14-12--
B--------------------------------------------------------------------
A--------------------------------------------------------------------
D--------------------------------------------------------------------
A--------------------------------------------------------------------
E--------------------------------------------------------------------

E--12-12-|-15-15-15-14-14-14-12-12-12-10-10-10-12--|
B--------|-----------------------------------------|
A--------|-----------------------------------------|
D--------|-----------------------------------------|
A--------|-----------------------------------------|
E--------|-----------------------------------------|

E22(24)-22(24)-22(24)-22(24)-22(24)-22(24)-22(24)-22(24)----
B--bu------bu------bu------bu------bu------bu------bu------bu--------
A--------------------------------------------------------------------
D--------------------------------------------------------------------
A--------------------------------------------------------------------
E--------------------------------------------------------------------

E-22(24)-22(24)-|-24-22-20-19-22-20-19-17-20-19-17---19-17-------|
B--bu------bu----|----------------------------------20------20-19-|
A----------------|------------------------------------------------|
D----------------|------------------------------------------------|
A----------------|------------------------------------------------|
E----------------|------------------------------------------------|

E-17----------------------------------------------------|
B----20---19---17---20---19---17-----17~~~~~~~~~~~~~~~~-|
A--------------------------------19---------------------|
D-------------------------------------------------------|
A-------------------------------------------------------|
E-------------------------------------------------------|

0

2

COMMANDO кавер 2003 года

e:---------------------------------------------------------|
B:---------------------------------------------------------|
G:--6--6-6-6-6-6--9--9-9-9-9-9--2--2-2-2-2-2--4--4-4-4-4-4-|
D:--6--6-6-6-6-6--9--9-9-9-9-9--2--2-2-2-2-2--4--4-4-4-4-4-|
A:--4--4-4-4-4-4--7--7-7-7-7-7--0--0-0-0-0-0--2--2-2-2-2-2-|
E:---------------------------------------------------------|
    They do their best, do what they can     They get them ready for Viet-Nam
e:-------------------------------------------------------------------|
B:-------------------------------------------------------------------|
G:--4/6--6-6--6-6---4/6--6-6--6-6--4/6--6-6--6-6--4/6--6-6--6-6------|
D:--4/6--6-6--6-6---4/6--6-6--6-6--4/6--6-6--6-6--4/6--6-6--6-6------|
A:--2/4--4-4--4-4---2/4--4-4--4-4--2/4--4-4--4-4--2/4--4-4--4-4------|
E:-------------------------------------------------------------------|

e:------------------------------------------|
B:------------------------------------------|
G:--9/11--11-11--11-11---9/11--11-11--11-11-|
D:--9/11--11-11--11-11---9/11--11-11--11-11-|
A:--7/9---9--9---9--9----7/9---9--9---9--9--|
E:------------------------------------------|

From old Hanoi to East Berlin Commando - involved again
e:-------------------------------------------------------------------|
B:-------------------------------------------------------------------|
G:--4/6--6-6--6-6---4/6--6-6--6-6--4/6--6-6--6-6--4/6--6-6--6-6------|
D:--4/6--6-6--6-6---4/6--6-6--6-6--4/6--6-6--6-6--4/6--6-6--6-6------|
A:--2/4--4-4--4-4---2/4--4-4--4-4--2/4--4-4--4-4--2/4--4-4--4-4------|
E:-------------------------------------------------------------------|

e:------------------------------------------|
B:------------------------------------------|
G:--9/11--11-11--11-11---9/11--11-11--11-11-|
D:--9/11--11-11--11-11---9/11--11-11--11-11-|
A:--7/9---9--9---9--9----7/9---9--9---9--9--|
E:------------------------------------------|

They do their best, do what they can  They get them ready for Viet-Nam
e:-------------------------------------------------------------------|
B:-------------------------------------------------------------------|
G:--4/6--6-6--6-6---4/6--6-6--6-6--4/6--6-6--6-6--4/6--6-6--6-6------|
D:--4/6--6-6--6-6---4/6--6-6--6-6--4/6--6-6--6-6--4/6--6-6--6-6------|
A:--2/4--4-4--4-4---2/4--4-4--4-4--2/4--4-4--4-4--2/4--4-4--4-4------|
E:-------------------------------------------------------------------|

e:------------------------------------------|
B:------------------------------------------|
G:--9/11--11-11--11-11---9/11--11-11--11-11-|
D:--9/11--11-11--11-11---9/11--11-11--11-11-|
A:--7/9---9--9---9--9----7/9---9--9---9--9--|
E:------------------------------------------|

First rule is the                       laws of Germany
e:-------------------------------------------------------------|
B:-------------------------------------------------------------|
G:--6--6-6-6-6-6--9--9-9-9-9-9-9--2--2-2-2-2-2-2--4--4-4-4-4-4-|
D:--6--6-6-6-6-6--9--9-9-9-9-9-9--2--2-2-2-2-2-2--4--4-4-4-4-4-|
A:--4--4-4-4-4-4--7--7-7-7-7-7-7--0--0-0-0-0-0-0--2--2-2-2-2-2-|
E:-------------------------------------------------------------|
Second rule is be                        nice to mommy
e:-------------------------------------------------------------|
B:-------------------------------------------------------------|
G:--6--6-6-6-6-6--9--9-9-9-9-9-9--2--2-2-2-2-2-2--4--4-4-4-4-4-|
D:--6--6-6-6-6-6--9--9-9-9-9-9-9--2--2-2-2-2-2-2--4--4-4-4-4-4-|
A:--4--4-4-4-4-4--7--7-7-7-7-7-7--0--0-0-0-0-0-0--2--2-2-2-2-2-|
E:-------------------------------------------------------------|

Third rule is don't                   talk to commies
e:-------------------------------------------------------------|
B:-------------------------------------------------------------|
G:--6--6-6-6-6-6--9--9-9-9-9-9-9--2--2-2-2-2-2-2--4--4-4-4-4-4-|
D:--6--6-6-6-6-6--9--9-9-9-9-9-9--2--2-2-2-2-2-2--4--4-4-4-4-4-|
A:--4--4-4-4-4-4--7--7-7-7-7-7-7--0--0-0-0-0-0-0--2--2-2-2-2-2-|
E:-------------------------------------------------------------|                            Fourth rule is eat                      Kosher salams
e:-------------------------------------------------------------|
B:-------------------------------------------------------------|
G:--6--6-6-6-6-6--9--9-9-9-9-9-9--2--2-2-2-2-2-2--4--4-4-4-4-4-|
D:--6--6-6-6-6-6--9--9-9-9-9-9-9--2--2-2-2-2-2-2--4--4-4-4-4-4-|
A:--4--4-4-4-4-4--7--7-7-7-7-7-7--0--0-0-0-0-0-0--2--2-2-2-2-2-|
E:-------------------------------------------------------------|

e:------------------------------------------|
B:------------------------------------------|
G:--9/11--11-11--11-11---9/11--11-11--11-11-|
D:--9/11--11-11--11-11---9/11--11-11--11-11-|
A:--7/9---9--9---9--9----7/9---9--9---9--9--|
E:------------------------------------------|

   They do their best, do what they can     They get them ready for Viet-Nam
e:-------------------------------------------------------------------|
B:-------------------------------------------------------------------|
G:--4/6--6-6--6-6---4/6--6-6--6-6--4/6--6-6--6-6--4/6--6-6--6-6------|
D:--4/6--6-6--6-6---4/6--6-6--6-6--4/6--6-6--6-6--4/6--6-6--6-6------|
A:--2/4--4-4--4-4---2/4--4-4--4-4--2/4--4-4--4-4--2/4--4-4--4-4------|
E:-------------------------------------------------------------------|

e:------------------------------------------|
B:------------------------------------------|
G:--9/11--11-11--11-11---9/11--11-11--11-11-|
D:--9/11--11-11--11-11---9/11--11-11--11-11-|
A:--7/9---9--9---9--9----7/9---9--9---9--9--|
E:------------------------------------------|

From old Hanoi to East Berlin Commando - involved again
e:-------------------------------------------------------------------|
B:-------------------------------------------------------------------|
G:--4/6--6-6--6-6---4/6--6-6--6-6--4/6--6-6--6-6--4/6--6-6--6-6------|
D:--4/6--6-6--6-6---4/6--6-6--6-6--4/6--6-6--6-6--4/6--6-6--6-6------|
A:--2/4--4-4--4-4---2/4--4-4--4-4--2/4--4-4--4-4--2/4--4-4--4-4------|
E:-------------------------------------------------------------------|

e:------------------------------------------|
B:------------------------------------------|
G:--9/11--11-11--11-11---9/11--11-11--11-11-|
D:--9/11--11-11--11-11---9/11--11-11--11-11-|
A:--7/9---9--9---9--9----7/9---9--9---9--9--|
E:------------------------------------------|

They do their best, do what they can  They get them ready for Viet-Nam
e:-------------------------------------------------------------------|
B:-------------------------------------------------------------------|
G:--4/6--6-6--6-6---4/6--6-6--6-6--4/6--6-6--6-6--4/6--6-6--6-6------|
D:--4/6--6-6--6-6---4/6--6-6--6-6--4/6--6-6--6-6--4/6--6-6--6-6------|
A:--2/4--4-4--4-4---2/4--4-4--4-4--2/4--4-4--4-4--2/4--4-4--4-4------|
E:-------------------------------------------------------------------|

e:------------------------------------------|
B:------------------------------------------|
G:--9/11--11-11--11-11---9/11--11-11--11-11-|
D:--9/11--11-11--11-11---9/11--11-11--11-11-|
A:--7/9---9--9---9--9----7/9---9--9---9--9--|
E:------------------------------------------|

First rule is the                       laws of Germany
e:-------------------------------------------------------------|
B:-------------------------------------------------------------|
G:--6--6-6-6-6-6--9--9-9-9-9-9-9--2--2-2-2-2-2-2--4--4-4-4-4-4-|
D:--6--6-6-6-6-6--9--9-9-9-9-9-9--2--2-2-2-2-2-2--4--4-4-4-4-4-|
A:--4--4-4-4-4-4--7--7-7-7-7-7-7--0--0-0-0-0-0-0--2--2-2-2-2-2-|
E:-------------------------------------------------------------|
Second rule is be                        nice to mommy
e:-------------------------------------------------------------|
B:-------------------------------------------------------------|
G:--6--6-6-6-6-6--9--9-9-9-9-9-9--2--2-2-2-2-2-2--4--4-4-4-4-4-|
D:--6--6-6-6-6-6--9--9-9-9-9-9-9--2--2-2-2-2-2-2--4--4-4-4-4-4-|
A:--4--4-4-4-4-4--7--7-7-7-7-7-7--0--0-0-0-0-0-0--2--2-2-2-2-2-|
E:-------------------------------------------------------------|

Third rule is don't                   talk to commies
e:-------------------------------------------------------------|
B:-------------------------------------------------------------|
G:--6--6-6-6-6-6--9--9-9-9-9-9-9--2--2-2-2-2-2-2--4--4-4-4-4-4-|
D:--6--6-6-6-6-6--9--9-9-9-9-9-9--2--2-2-2-2-2-2--4--4-4-4-4-4-|
A:--4--4-4-4-4-4--7--7-7-7-7-7-7--0--0-0-0-0-0-0--2--2-2-2-2-2-|
E:-------------------------------------------------------------|                            Fourth rule is eat                      Kosher salams
e:-------------------------------------------------------------|
B:-------------------------------------------------------------|
G:--6--6-6-6-6-6--9--9-9-9-9-9-9--2--2-2-2-2-2-2--4--4-4-4-4-4-|
D:--6--6-6-6-6-6--9--9-9-9-9-9-9--2--2-2-2-2-2-2--4--4-4-4-4-4-|
A:--4--4-4-4-4-4--7--7-7-7-7-7-7--0--0-0-0-0-0-0--2--2-2-2-2-2-|
E:-------------------------------------------------------------|

e:------------------------------------------|
B:------------------------------------------|
G:--9/11--11-11--11-11---9/11--11-11--11-11-|
D:--9/11--11-11--11-11---9/11--11-11--11-11-|
A:--7/9---9--9---9--9----7/9---9--9---9--9--|
E:------------------------------------------|

e:-------------------------------------------------------------------|
B:-------------------------------------------------------------------|
G:--4/6--6-6--6-6---4/6--6-6--6-6--4/6--6-6--6-6--4/6--6-6--6-6------|
D:--4/6--6-6--6-6---4/6--6-6--6-6--4/6--6-6--6-6--4/6--6-6--6-6------|
A:--2/4--4-4--4-4---2/4--4-4--4-4--2/4--4-4--4-4--2/4--4-4--4-4------|
E:-------------------------------------------------------------------|

e:----|
B:----|
G:--9-|
D:--9-|
A:--7-|
E:----|

0

3

Master of Puppets

Tab symbols used:
p  - pull off
h  - hammer on        )              )\
    / or \ - slide           /  - bend      /  \ - bend and release
       vib - vibrato
x  - rake

   E5               D5 Db5  C                        N.C.(Em)
                PM..............
e |----------------|---------------|---------------|----------------|
B |----------------|---------------|---------------|----------------|
G |9---------------|7---6---5------|---------------|.---------------|
D |9---------------|7---6---5------|---------------|.---------------|
A |7---------------|5---4---3------|---------------|-----7-----6----|
E |0---------------|---------------|---------------|-0-0---0-0---0-0|

                                               
   D   Db  C         N.C.(Em)               Play 4 times
           PM.............................
e |-----------------|---------------|-----------------|
B |7---6---5--------|---------------|-----------------|
G |7---6---5--------|---------------|----------------.|
D |7---6---5--------|---------------|----------------.|
A |5---4---3--------|---------------|-----------------|
E |-----------------|0-0-7-0-0-6-0-0|5-0-4-0-3-0-2-0--|

    N.C.
    PM...............................................                       
e |-----------------|----------------|----------------|-----------------|
B |-----------------|----------------|----------------|-----------------|
G |.----------------|----------------|----------------|----------------.|
D |.----------------|----------------|----------------|----------------.|
A |-----2-----3-----|4-----3-----2-2-|----2-----3-----|5\4---5\4---5\4--|
E |-0-1---0-1---0-1-|--0-1---0-1-----|0-1---0-1---1-0-|3\2-0-3\2-0-3\2--|

  RhyFig0
   N.C.                                                           B5
   PM.............................................................         
e |-----------------|----------------|----------------|----------------|
B |-----------------|----------------|----------------|----------------|
G |.----------------|----------------|----------------|------------4---|
D |.----------------|----------------|----------------|------------4---|
A |-----2-----3-----|4-----3-----2-2-|----2-----3-----|4-----3-----2---|
E |-0-1---0-1---0-1-|--0-1---0-1-----|0-1---0-1---0-1-|--0-1---1-0-----|

    N.C.
    PM...............................................                       
e |----------------|----------------|----------------|-----------------|
B |----------------|----------------|----------------|-----------------|
G |----------------|----------------|----------------|----------------.|
D |----------------|----------------|----------------|----------------.|
A |----2-----3-----|4-----3-----2-2-|----2-----3-----|5\4---5\4---5\4--|
E |0-1---0-1---0-1-|--0-1---0-1-----|0-1---0-1---1-0-|3\2-0-3\2-0-3\2--|

                end
             RhyFig0                                RhyFig1
                    E5                              N.C.(Em)               
                    w/ Fill 1                        PM..............
e |----------------|---------------|---------------|-----------------|
B |----------------|---------------|---------------|-----------------|
G |----------------|---------------|---------------|.----------------|
D |----------------|2--------------|---------------|.----------------|
A |5\4---5\4---5\4-|2--------------|---------------|-----------------|
E |3\2-0-3\2-0-3\2-|0--------------|---------------|-0-0-0-0-0-0-0-0-|

                                    end RhyFig1
   PM               PM.................     
e |----------------|----------------|-----------|
B |----------------|----------------|-----------|
G |----------------|----------------|----------.|
D |----------------|----------------|----------.|
A |--5/7---8\7-5/7-|----------------|--5/7-5/7--|
E |0-3/5-0-6\5-3/5-|0-0-0-0-0-0-0-0-|0-3/5-3/5--|

/
   Fill 1
   PM...........................vib
e |----------------|----------------|----|
B |----------------|----------------|----|
G |----------------|----------------|----|
D |----8-----8-----|8-----8-----8===|====|
A |--7-----7-----7-|----7-----7-----|----|
E |0-----0-----0---|--0-----0-------|----|

\

**** 1st,2nd,3rd verses: Repeat RhyFig1 4 times, then ->

   RhyFig1A
    N.C.(F#m)
    PM.................               PM.................
e |-----------------|----------------|----------------|-----------|
B |-----------------|----------------|----------------|-----------|
G |.----------------|----------------|----------------|----------.|
D |.----------------|--4-4---5\4-4-4-|----------------|--4---4---.|
A |-----------------|--0-2---3\2-0-2-|----------------|--0h2-0h2--|
E |-2-2-2-2-2-2-2-2-|2---------------|2-2-2-2-2-2-2-2-|2----------|

        end RhyFig1A
   PM........
e |----------------|
B |----------------|
G |4-4-4-4-4-4-4-4-|
D |4-4-4-4-4-4-4-4-|
A |2-2-2-2-2-2-2-2-|
E |----------------|
                                                                 
                                                                      Repeat
                                                                  3.75 times
    E5      D5  E5                              C5   B5          D#5  B5
    PM......         PM.......   vib    PM......          PM......
e |-----------------|------------------|-----------------|-----------------|
B |-----------------|------------------|-----------------|-----------------|
G |.9-------7---9---|------------------|-----------------|--------8-------.|
D |.9-------7---9---|----9-------------|--------10---9---|--------8---9---.|
A |-7-------5---7---|7-9---10-9h10=====|--------10---9---|--------6---9----|
E |-0-0-0-0---------|------------------|8-8-8-8-8----7---|8-8-8-8-----7----|

   N.C.(B)          E5               F                E5
   2 gtrs........                                                 PM..
e |----------------|----------------|----------------|----------------|
B |----------------|----------------|----------------|----------------|
G |----------------|4---4-----------|2---2-----------|4---------------|
D |7-5-4---4-------|2---2-----------|3---3-----------|2---------------|
A |9-7-6---6-7-6---|2---2-----------|3---3-----------|2---------------|
E |----------8-7---|0---0-----------|1---1-----------|0---------0-0-0-|

            G                                 C5               B5
       PM..                                             PM....   PM....
e |--------|----------------|----------------|----------------|--------|
B |--------|0---------------|----------------|----------------|--------|
G |--------|0---------------|----------------|5---------------|--------|
D |--------|0---------------|----------------|5---------------|4-------|
A |--------|----------------|----------------|3---------0-0-0-|2-0-0-0-|
E |2p0-0-0-|3---------------|----------------|----------------|--------|

   A5                              D                C5       B
                                             PM....   PM....
e |---------------|---------------|2---------------|--------|---------------|
B |---------------|---------------|3---------------|--------|4--------------|
G |2--------------|---------------|2---------------|--------|4--------------|
D |2--------------|---------------|0---------------|5-------|4--------------|
A |0--------------|---------------|----------------|3-------|2--------------|
E |---------------|---------------|----------3-3-3-|--3-3-3-|---------------|

   E5               D5       C                         E5
             PM....     PM..
e |----------------|--------|----------------|--------|----------------|
B |----------------|--------|5---------------|--------|----------------|
G |9---------------|7-------|5---------------|--------|4---4-----------|
D |9---------------|7-------|5---------------|--------|2---2-----------|
A |7---------------|5-------|3---------------|--------|2---2-----------|
E |0---------0-0-0-|----0-0-|----------------|--------|0---0-----------|

   F                E5                        C
                              PM.............
e |----------------|----------------|--------|----------------|
B |----------------|----------------|--------|5---------------|
G |2---2-----------|4---------------|--------|5---------------|
D |3---3-----------|2---------------|--------|5---------------|
A |3---3-----------|2---------------|--------|3---------------|
E |1---1-----------|0---------0-0-0-|2p0-0-0-|----------------|

   (C)              E5               F

e |----------------|----------------|----------------|
B |(5)-------------|----------------|----------------|
G |(5)-------------|4---4-----------|2---2-----------|
D |(5)-------------|2---2-----------|3---3-----------|
A |(3)-------------|2---2-----------|3---3-----------|
E |----------------|0---0-----------|1---1-----------|

After verse 1, play RhyFig0, then go back and play verse 2
After verse 2, pause for vocal (Master, Master...), then go to Coda 1
After verse 3, go to Coda 2

Coda 1:

  RhyFig2
   Em       D                   Cadd9              Amsus2   B7
                     /3\
e |--------|--------0h2p0----3-|------------------|-----------------|
B |--------|----3--------3-----|------3---3-----0-|(0)--0-------0---|
G |------0-|--2---2--------2p0-|(0)-0---0---0-----|---2-------2-----|
D |----2---|0------------------|--------------2---|-----------------|
A |--2-----|-------------------|-3----------------|-0-----0-2-----2-|
E |0-------|-------------------|------------------|-----------------|

          end
      RhyFig2 w/RhyFig2    (0vol<<< = volume swell from vol off)
  B7/D#       Em
              0vol<<<< 0vol<<<<<<<<<< 0vol<<<<<<<<<< 0vol<< 0vol<<< 0vol<<<<
e |---------||--------|--------------|--------------|--------------|--------|
B |(0)--0---||--------|--------------|--------------|--------------|--------|
G |---2-----||--------|--------------|--------------|2------4------|8-------|
D |-1-------||2-------|4-------------|5-------------|--------------|--------|
A |---------||--------|--------------|--------------|--------------|--------|
E |-------3-||--------|--------------|--------------|--------------|--------|

  Rhyfig2a
   w/ RhyFig2 2 times
    Em                     D
   2gtrs
e |-----19/22--19--------|20---17-------------------20---17--------|
B |-20---------20---20---|22---19---19---19-19-19---22---19---19---|
G |-21--------------21---|----------19---19-19-19-------------19---|
D |----------------------|-----------------------------------------|
A |----------------------|-----------------------------------------|
E |----------------------|-----------------------------------------|

  Cadd9                                     Amsus2

e |19---15-------------------19---15--------|17---15h17p15-14--------|
B |20---17---17---17-17-17---20---17---17---|19---17h19p17-16---17---|
G |----------17---17-17-17-------------17---|-------------------17---|
D |-----------------------------------------|------------------------|
A |-----------------------------------------|------------------------|
E |-----------------------------------------|------------------------|

                                           end
   B7                  B7/D#            RhyFig2a

e |----------14--------|14---16---17---19----|
B |16---17--------17---|16---17---19---20----|
G |16---17--/19---17---|---------------------|
D |--------------------|---------------------|
A |--------------------|---------------------|
E |--------------------|---------------------|

Repeat RhyFig2a

   w/ RhyFig2 2 times & Fill 1                                full full
   Em               D                     /----3----\  Cadd9    )\  )\
                    vib         /--3--\  /     /--3--\ vib     /  \/  \
e |----------------|15------15-17-15----19-15-12h15p12|----------------|
B |17---------17-19|------19---------19---------------|13-----15-------|
G |----------------|----------------------------------|----------------|
D |----------------|----------------------------------|----------------|
A |----------------|----------------------------------|----------------|
E |----------------|----------------------------------|----------------|

                                              all full bends of G string only
   Amsus2                 B7            B7/D#                Em
                                           )  )  )
                          vib             / \/ \/ \          vib
e |15-14------15-14---------------------|-------------------|-------------|
B |------12---------12h15p12------------|15-----------------|-------------|
G |-------------------------------12-14-|14-------p12----12-|-------------|
D |-------------------------------------|-------------14----|14--------12-|
A |-------------------------------------|-------------------|-------------|
E |-------------------------------------|-------------------|-------------|

   D                                          Cadd9
                                      /--3--\ vib
e |------------------------------------------|------------------------------|
B |------------------------------------------|------------------------------|
G |12----14-12---11--------14---12---11h12p11|------------------------------|
D |-------------------12---------------------|10------------9-10--------9-10|
A |------------------------------------------|-----------12-----------------|
E |------------------------------------------|------------------------------|

  Amsus2                   B7                 B7/D#
    /---3---\   /---3---\                       /--3--\
e |----------------------------------15---14--|11h12p11-----------/19--|
B |------------------------12-----------------|---------12---10--------|
G |----------------11--12-------12------------|------------------------|
D |12--10--12--14-----------------------------|------------------------|
A |-------------------------------------------|------------------------|
E |-------------------------------------------|------------------------|

/
   Fill 2                 Fill 3                 Fill 4
                          vib
e |15------------|     e |--------------|     e |15-----------|-14---------|
B |17------------|     B |17------------|     B |17-----------|(17)--------|
G |--------------|     G |--------------|     G |-------------|------------|
D |--------------|     D |--------------|     D |-------------|------------|
A |--------------|     A |--------------|     A |-------------|------------|
E |--------------|     E |--------------|     E |-------------|------------|

\

Play RhyFig2a twice, with Fill 3 first time

Play RhyFig2 twice, with distortion, and
                    chord progression: E5,D5,C5,A5,B5,D#5
                                                                    end
                                    RhyFig3                       RhyFig3
   E5                               F#5 G5 F#5   G5   F#5 G5 F#5  G5 C#5
   PM.........................       PM................................
e |----------------|----------------|-----------------|----------------|
B |----------------|----------------|-----------------|----------------|
G |4-4-4-4-4-4-4-4-|4-4-4-4-4-4-4-4-|-----------------|----------------|
D |2-2-2-2-2-2-2-2-|2-2-2-2-2-2-2-2-|-----------------|--------------6-|
A |2-2-2-2-2-2-2-2-|2-2-2-2-2-2-2-2-|4-4-5-4-4-4-5-4-4|4-4-5-4-4-4-5-4-|
E |0-0-0-0-0-0-0-0-|0-0-0-0-0-0-0-0-|2-2-3-2-2-2-3----|2-2-3-2-2-2-3---|

Repeat RhyFig3 once alone, then 4 times with vocals.

   G                                 F3               pick
                                                      slide    slide
e |----------------|----------------|----------------|----------------|
B |----------------|----------------|----------------|----------------|
G |4---------------|(4)-------------|3---------------|----------------|
D |5---------------|(5)-------------|4---------------|----------------|
A |5---------------|(5)-------------|4---------------|----------------|
E |3---------------|(3)-------------|2---------------|X\\\\\\-17\\\\\-|

  w/ RhyFig1 4 times
   N.C. (Em)
    /--3--\  /--3--\  /--3--\  /--3--\   /--3--\  /--3--\  /--3--\  /--3--\
e |17p12----------12-17p12----------12-|17p12----------12-15p12----------12-|
B |------13-12-13----------13-12-13----|------13-12-13----------13-12-13----|
G |------------------------------------|------------------------------------|
D |------------------------------------|------------------------------------|
A |------------------------------------|------------------------------------|
E |------------------------------------|------------------------------------|

    /--3--\  /--3--\  /--3--\  /--3--\   /--3--\
e |17p12----------12-17p12----------12-|17p12-------12-12-15p12----|
B |------13-13-12----------13-12-13----|------13-12-------------13-|
G |------------------------------------|---------------------------|
D |------------------------------------|---------------------------|
A |------------------------------------|---------------------------|
E |------------------------------------|---------------------------|

     /--3--\              /--3--\               /--3--\
e |----19-19-17-17-17-17-15-15-15-14-14-14-14-|17-17-17-15-15-15-14-|
B |/17----------------------------------------|---------------------|
G |-------------------------------------------|---------------------|
D |-------------------------------------------|---------------------|
A |-------------------------------------------|---------------------|
E |-------------------------------------------|---------------------|

                             f u l l
                             )  )  )
                            / \/ \/   /--3--\             /--3--\    sl
e |14-14-14-14------------|-------------------17h19\\---|-----------------|
B |------------15---15-17-|17--------17p15p14-------\\17|15p14------------|
G |-----------------------|-----------------------------|------16-14\\\\--|
D |-----------------------|-----------------------------|-----------------|
A |-----------------------|-----------------------------|-----------------|
E |-----------------------|-----------------------------|-----------------|

      trem bar
                      /-1-\    /---2---\
         \    /\     /     \  /         \     /\     /\
   *       \3/  \1.5/       \/           \1.5/  \1.5/  \1.5
e |X--------------------------|------------------------------------|
B |---------------------------|------------------------------------|
G |---------------------------|------------------------------2--4--|
D |---------------------------|------------------------------------|
A |---------------------------|------------------------------------|
E |---------------------------|------------------------------------|

   * This note produced by pulling string off edge of fretboard and
     "fretting" it against pickup.

  full
    )
   /         gr                vib
e |------------------------|--------------|--------------------------------|
B |------------------------|--------------|/15--13--12------13--12------12-|
G |2--4--3--2-0h2----------|--------------|-------------14----------14-----|
D |----------------4--2----|2-h4----------|--------------------------------|
A |---------------------(2)|--------------|--------------------------------|
E |------------------------|--------------|--------------------------------|

                            /--3--\
e |---------------------------------|------------------------|
B |------------12----12-12-12-12-12-|12-15-13-12-15-13-12-13-|
G |11--12--14-----------------------|------------------------|
D |---------------------------------|------------------------|
A |---------------------------------|------------------------|
E |---------------------------------|------------------------|

                     gr
e |12----------12-------------|14-------14-------15-15-------|
B |---15-15-13----15-13h15-15-|---17-15----15-17-------17/19-|
G |---------------------------|------------------------------|
D |---------------------------|------------------------------|
A |---------------------------|------------------------------|
E |---------------------------|------------------------------|

  w/ RhyFig1A
   N.C. (F#m)
                /--3--\
e |17-------19-17-------17----------19-17-------|17----------19-17-------|
B |---20-19-------19-19----21-19-19-------19-19-|---21-19-19-------19-19-|
G |---------------------------------------------|------------------------|
D |---------------------------------------------|------------------------|
A |---------------------------------------------|------------------------|
E |---------------------------------------------|------------------------|

   all bends in next 2 ---> full    full    full     1.5
measures on B string only     )       )       )       )
                             /       /       /       /
e |17----------19-17-------|14--14------14--------------14--|
B |---21-19-19-------19-19-|17------17------17-(17)\17------|
G |------------------------|--------------------------------|
D |------------------------|--------------------------------|
A |------------------------|--------------------------------|
E |------------------------|--------------------------------|

           half        full
             )           )      full    full    full          full
            /           /         )       )       )             )
    /---3--\    /---3--\         /       /       /   /--3--\   /
e |19-p14------19-p14--14------|----14------14------14-14-14------14-14-|
B |--------17----------17------|17------17------17------------17--------|
G |----------------------------|----------------------------------------|
D |----------------------------|----------------------------------------|
A |----------------------------|----------------------------------------|
E |----------------------------|----------------------------------------|

   full    full    full    full     full    full    full    full
     )       )       )       )        )       )       )       )
    /       /       /       /        /       /       /       /
e |----15------15------15------15--|----17------17------18------18--|
B |18------18------18------18------|20------20------21------21------|
G |--------------------------------|--------------------------------|
D |--------------------------------|--------------------------------|
A |--------------------------------|--------------------------------|
E |--------------------------------|--------------------------------|

   full      2      1.5  trem bar          depress & vibrate
     )       )       )                     bar simultaneously
    /       /       /     /\/\/\/\/\/\/\/\
e |----19------19--22--|(22)--------------\/\/\--------------|
B |22------22----------|-----------------------\/\/\---------|
G |--------------------|----------------------------\/\/\----|
D |--------------------|---------------------------------\/\-|
A |--------------------|-------------------------------------|
E |--------------------|-------------------------------------|

    N.C.                                                           B5
    PM...........................     PM...........................
e |-----------------|----------------|----------------|-----------------|
B |-----------------|----------------|----------------|-----------------|
G |.----------------|----------------|----------------|----------------.|
D |.----3-----3-----|3-----3---------|----3-----3-----|3-----3-----4---.|
A |-----3-----3-----|3-----3-----2-2-|----3-----3-----|3-----3-----2----|
E |-0-0-1-0-0-1-0-0-|1-0-0-1-0-0-----|0-0-1-0-0-1-0-0-|1-0-0-1-0-0------|

   E5                N.C.
   PM..............  PM...................         PM..................
e |----------------|-----------------|----------------|----------------|
B |----------------|-----------------|----------------|----------------|
G |----------------|.----------------|----------------|----------------|
D |----------------|.--------------2-|4-5-------------|----------------|
A |2-2-2-2-2-2-2-2-|---------2-3-5---|----3--------3-3|3-2-3-5-3-2-----|
E |0-0-0-0-0-0-0-0-|-0-2-3-5---------|----------------|------------3-2-|

                                2 gtrs
   PM..............  PM.....................         PM..................
e |-----------------|------------------|----------------|----------------|
B |-----------------|------------------|----------------|----------------|
G |----------------.|------------------|2-4-------------|----------------|
D |----------------.|------------4-2/5-|4-5-2--------2-2|2-0-2-4-2-0-----|
A |-----------------|--------2-3-5-----|----3--------3-3|3-2-3-5-3-2-3-2-|
E |0-0-0-0-0-0-0-00-|0-2-3-5-----------|----------------|------------3-2-|

                                           C
   PM......................................         PM..................
e |----------------|------------------|----------------|----------------|
B |----------------|------------------|----5-----------|----------------|
G |----------------|------------------|2-4-5-----------|----------------|
D |----------------|------------4-2/5-|4-5-5-----------|----------------|
A |----------------|--------2-3-5-----|----3--------3-3|3-2-3-5-3-2-----|
E |0-0-0-0-0-0-0-00|0-2-3-5-----------|----------------|------------3-2-|

   E5

e |----------------|----------------|
B |----------------|----------------|   Go back
G |4---------------|------2---------|   and play
D |2------------5-5|5-4-5---5-4-2-4-|   verse 3
A |2------------3-3|3-2-3-5-3-2-----|
E |0---------------|------------3-2-|

Coda 2:

Play RhyFig1 4 times
                                     E5
                                     w/ Laughter.....
e |----------------|----------------|----------------|
B |Ha!-Ha!-Ha!-Ha!-|----------------|----------------|
G |----------------|----------------|4---------------|
D |----------------|----------------|2---------------|
A |----------------|5\4---5\4---5\4-|2---------------|
E |----------------|3\2-0-3\2-0-3\2-|0---------------|

0


Вы здесь » M y s t i c A Forum » Гитарист Forum » Metallica Tabs (Самые Качественные)